  0
SECTION
  2
HEADER
  9
$ACADVER
  1
AC1009
  9
$INSBASE
 10
0.0
 20
0.0
 30
0.0
  9
$EXTMIN
 10
-170.0164782349211
 20
-265.80211091866681
 30
-0.0006797290903364
  9
$EXTMAX
 10
370.0164807494923
 20
537.08808227102497
 30
0.0000000155583599
  9
$LIMMIN
 10
0.0
 20
0.0
  9
$LIMMAX
 10
0.0
 20
0.0
  9
$ORTHOMODE
 70
     0
  9
$REGENMODE
 70
     1
  9
$FILLMODE
 70
     1
  9
$QTEXTMODE
 70
     0
  9
$MIRRTEXT
 70
     1
  9
$DRAGMODE
 70
     2
  9
$LTSCALE
 40
15.24
  9
$OSMODE
 70
   231
  9
$ATTMODE
 70
     1
  9
$TEXTSIZE
 40
0.0
  9
$TRACEWID
 40
1.0
  9
$TEXTSTYLE
  7
STANDARD
  9
$CLAYER
  8
DATA
  9
$CELTYPE
  6
BYLAYER
  9
$CECOLOR
 62
   256
  9
$DIMSCALE
 40
1.0
  9
$DIMASZ
 40
0.18
  9
$DIMEXO
 40
0.0625
  9
$DIMDLI
 40
0.38
  9
$DIMRND
 40
0.0
  9
$DIMDLE
 40
0.0
  9
$DIMEXE
 40
0.18
  9
$DIMTP
 40
0.0
  9
$DIMTM
 40
0.0
  9
$DIMTXT
 40
0.18
  9
$DIMCEN
 40
0.09
  9
$DIMTSZ
 40
0.0
  9
$DIMTOL
 70
     0
  9
$DIMLIM
 70
     0
  9
$DIMTIH
 70
     1
  9
$DIMTOH
 70
     1
  9
$DIMSE1
 70
     0
  9
$DIMSE2
 70
     0
  9
$DIMTAD
 70
     0
  9
$DIMZIN
 70
     0
  9
$DIMBLK
  1

  9
$DIMASO
 70
     1
  9
$DIMSHO
 70
     1
  9
$DIMPOST
  1

  9
$DIMAPOST
  1

  9
$DIMALT
 70
     0
  9
$DIMALTD
 70
     2
  9
$DIMALTF
 40
25.399999999999999
  9
$DIMLFAC
 40
1.0
  9
$DIMTOFL
 70
     0
  9
$DIMTVP
 40
0.0
  9
$DIMTIX
 70
     0
  9
$DIMSOXD
 70
     0
  9
$DIMSAH
 70
     0
  9
$DIMBLK1
  1

  9
$DIMBLK2
  1

  9
$DIMSTYLE
  2
STANDARD
  9
$DIMCLRD
 70
     0
  9
$DIMCLRE
 70
     0
  9
$DIMCLRT
 70
     0
  9
$DIMTFAC
 40
1.0
  9
$DIMGAP
 40
0.09
  9
$LUNITS
 70
     2
  9
$LUPREC
 70
     4
  9
$SKETCHINC
 40
0.1
  9
$FILLETRAD
 40
0.0
  9
$AUNITS
 70
     0
  9
$AUPREC
 70
     0
  9
$MENU
  1
acad
  9
$ELEVATION
 40
0.0
  9
$PELEVATION
 40
0.0
  9
$THICKNESS
 40
0.0
  9
$LIMCHECK
 70
     0
  9
$BLIPMODE
 70
     0
  9
$CHAMFERA
 40
0.0
  9
$CHAMFERB
 40
0.0
  9
$SKPOLY
 70
     0
  9
$TDCREATE
 40
2456119.7506018518
  9
$TDUPDATE
 40
2456119.7514269911
  9
$TDINDWG
 40
0.0003757639
  9
$TDUSRTIMER
 40
0.0003741435
  9
$USRTIMER
 70
     1
  9
$ANGBASE
 50
0.0
  9
$ANGDIR
 70
     0
  9
$PDMODE
 70
     1
  9
$PDSIZE
 40
-2.0
  9
$PLINEWID
 40
0.0
  9
$COORDS
 70
     2
  9
$SPLFRAME
 70
     0
  9
$SPLINETYPE
 70
     6
  9
$SPLINESEGS
 70
     8
  9
$ATTDIA
 70
     0
  9
$ATTREQ
 70
     1
  9
$HANDLING
 70
     1
  9
$HANDSEED
  5
265
  9
$SURFTAB1
 70
     6
  9
$SURFTAB2
 70
     6
  9
$SURFTYPE
 70
     6
  9
$SURFU
 70
     6
  9
$SURFV
 70
     6
  9
$UCSNAME
  2

  9
$UCSORG
 10
0.0
 20
0.0
 30
0.0
  9
$UCSXDIR
 10
1.0
 20
0.0
 30
0.0
  9
$UCSYDIR
 10
0.0
 20
1.0
 30
0.0
  9
$PUCSNAME
  2

  9
$PUCSORG
 10
0.0
 20
0.0
 30
0.0
  9
$PUCSXDIR
 10
1.0
 20
0.0
 30
0.0
  9
$PUCSYDIR
 10
0.0
 20
1.0
 30
0.0
  9
$USERI1
 70
     0
  9
$USERI2
 70
     0
  9
$USERI3
 70
     0
  9
$USERI4
 70
     0
  9
$USERI5
 70
     0
  9
$USERR1
 40
0.0
  9
$USERR2
 40
0.0
  9
$USERR3
 40
0.0
  9
$USERR4
 40
0.0
  9
$USERR5
 40
0.0
  9
$WORLDVIEW
 70
     1
  9
$SHADEDGE
 70
     3
  9
$SHADEDIF
 70
    70
  9
$TILEMODE
 70
     1
  9
$MAXACTVP
 70
    64
  9
$PLIMCHECK
 70
     0
  9
$PEXTMIN
 10
1.0000000000000000E+020
 20
1.0000000000000000E+020
 30
1.0000000000000000E+020
  9
$PEXTMAX
 10
-1.0000000000000000E+020
 20
-1.0000000000000000E+020
 30
-1.0000000000000000E+020
  9
$PLIMMIN
 10
0.0
 20
0.0
  9
$PLIMMAX
 10
12.0
 20
9.0
  9
$UNITMODE
 70
     0
  9
$VISRETAIN
 70
     0
  9
$PLINEGEN
 70
     1
  9
$PSLTSCALE
 70
     0
  0
ENDSEC
  0
SECTION
  2
TABLES
  0
TABLE
  2
VPORT
 70
     1
  0
VPORT
  2
*ACTIVE
 70
     0
 10
0.0
 20
0.0
 11
1.0
 21
1.0
 12
100.0000012572856
 22
135.64298567617911
 13
0.0
 23
0.0
 14
1.0
 24
1.0
 15
0.0
 25
0.0
 16
0.0
 26
0.0
 36
1.0
 17
0.0
 27
0.0
 37
0.0
 40
809.13027241137343
 41
2.172503242542152
 42
50.0
 43
0.0
 44
0.0
 50
0.0
 51
0.0
 71
     0
 72
  2000
 73
     1
 74
     1
 75
     0
 76
     0
 77
     0
 78
     0
  0
ENDTAB
  0
TABLE
  2
LTYPE
 70
    12
  0
LTYPE
  2
CONTINUOUS
 70
     0
  3
Solid line
 72
    65
 73
     0
 40
0.0
  0
LTYPE
  2
PHANTOM2
 70
     0
  3
___ _ _ ___ _ _ ___ _ _ ___ _ _
 72
    65
 73
     6
 40
1.25
 49
0.625
 49
-0.125
 49
0.125
 49
-0.125
 49
0.125
 49
-0.125
  0
ENDTAB
  0
TABLE
  2
LAYER
 70
     6
  0
LAYER
  2
0
 70
     0
 62
     7
  6
CONTINUOUS
  0
LAYER
  2
DATA
 70
     0
 62
     7
  6
CONTINUOUS
  0
LAYER
  2
HIBINO-BASE
 70
     0
 62
     7
  6
CONTINUOUS
  0
LAYER
  2
SPEC
 70
     0
 62
     7
  6
CONTINUOUS
  0
LAYER
  2
DIMNSIONS
 70
     0
 62
     7
  6
CONTINUOUS
  0
ENDTAB
  0
TABLE
  2
STYLE
 70
     3
  0
STYLE
  2
STANDARD
 70
     0
 40
0.0
 41
1.0
 50
0.0
 71
     0
 42
0.0
  3
txt
  4
BIGFONT.SHX
  0
ENDTAB
  0
TABLE
  2
VIEW
 70
     0
  0
ENDTAB
  0
TABLE
  2
UCS
 70
     0
  0
ENDTAB
  0
TABLE
  2
APPID
 70
     4
  0
APPID
  2
ACAD
 70
     0
  0
APPID
  2
ACADANNOTATIVE
 70
     0
  0
APPID
  2
ACAD_NAV_VCDISPLAY
 70
     0
  0
APPID
  2
ACAD_MLEADERVER
 70
     0
  0
ENDTAB
  0
TABLE
  2
DIMSTYLE
 70
     2
  0
DIMSTYLE
  2
STANDARD
 70
     0
  3

  4

  5

  6

  7

 40
1.0
 41
0.18
 42
0.0625
 43
0.38
 44
0.18
 45
0.0
 46
0.0
 47
0.0
 48
0.0
140
0.18
141
0.09
142
0.0
143
25.399999999999999
144
1.0
145
0.0
146
1.0
147
0.09
 71
     0
 72
     0
 73
     1
 74
     1
 75
     0
 76
     0
 77
     0
 78
     0
170
     0
171
     2
172
     0
173
     0
174
     0
175
     0
176
     0
177
     0
178
     0
  0
ENDTAB
  0
ENDSEC
  0
SECTION
  2
BLOCKS
  0
BLOCK
  8
0
  2
$MODEL_SPACE
 70
     0
 10
0.0
 20
0.0
 30
0.0
  3
$MODEL_SPACE
  1

  0
ENDBLK
  5
1F6
  8
0
  0
BLOCK
 67
     1
  8
0
  2
$PAPER_SPACE
 70
     0
 10
0.0
 20
0.0
 30
0.0
  3
$PAPER_SPACE
  1

  0
ENDBLK
  5
1F2
 67
     1
  8
0
  0
BLOCK
  8
DATA
  2
____
 70
     0
 10
0.0
 20
0.0
 30
0.0
  3
____
  1

  0
LINE
  5
2F
  8
0
  6
CONTINUOUS
 62
     7
 10
-10.49999999999997
 20
-52.0
 30
0.0
 11
-10.49999999999997
 21
-61.5
 31
0.0
  0
LINE
  5
30
  8
0
  6
CONTINUOUS
 62
     7
 10
-7.4999999999999707
 20
-51.96875
 30
0.0
 11
-7.4999999999999707
 21
-61.5
 31
0.0
  0
LINE
  5
31
  8
0
  6
CONTINUOUS
 62
     7
 10
-6.4999999999999707
 20
-51.958333333333321
 30
0.0
 11
-6.4999999999999707
 21
-61.5
 31
0.0
  0
LINE
  5
32
  8
0
  6
CONTINUOUS
 62
     7
 10
-3.499999999999972
 20
-51.96875
 30
0.0
 11
-3.499999999999972
 21
-61.5
 31
0.0
  0
LINE
  5
33
  8
0
  6
CONTINUOUS
 62
     7
 10
-2.499999999999972
 20
-52.0
 30
0.0
 11
-2.499999999999972
 21
-61.5
 31
0.0
  0
LINE
  5
34
  8
0
  6
CONTINUOUS
 62
     7
 10
-3.499999999999972
 20
-61.5
 30
0.0
 11
-6.4999999999999849
 21
-61.5
 31
0.0
  0
LINE
  5
35
  8
0
  6
CONTINUOUS
 62
     7
 10
-7.4999999999999867
 20
-61.5
 30
0.0
 11
-10.49999999999997
 21
-61.5
 31
0.0
  0
LINE
  5
36
  8
0
  6
CONTINUOUS
 62
     7
 10
-2.499999999999972
 20
-61.000000000000021
 30
0.0
 11
-3.499999999999972
 21
-61.000000000000021
 31
0.0
  0
LINE
  5
37
  8
0
  6
CONTINUOUS
 62
     7
 10
-6.4999999999999707
 20
-61.000000000000021
 30
0.0
 11
-7.4999999999999707
 21
-61.000000000000021
 31
0.0
  0
LINE
  5
38
  8
0
  6
CONTINUOUS
 62
     7
 10
-3.499999999999972
 20
-52.0
 30
0.0
 11
-6.4999999999999849
 21
-52.0
 31
0.0
  0
LINE
  5
39
  8
0
  6
CONTINUOUS
 62
     7
 10
-7.4999999999999867
 20
-52.0
 30
0.0
 11
-10.49999999999997
 21
-52.0
 31
0.0
  0
LINE
  5
3A
  8
0
  6
CONTINUOUS
 62
     7
 10
-2.499999999999972
 20
-52.499999999999972
 30
0.0
 11
-3.499999999999972
 21
-52.499999999999972
 31
0.0
  0
LINE
  5
3B
  8
0
  6
CONTINUOUS
 62
     7
 10
-6.4999999999999707
 20
-52.499999999999972
 30
0.0
 11
-7.4999999999999707
 21
-52.499999999999972
 31
0.0
  0
LINE
  5
3C
  8
0
  6
CONTINUOUS
 62
     7
 10
71.500000000000014
 20
-61.5
 30
0.0
 11
-2.499999999999972
 21
-61.5
 31
0.0
  0
LINE
  5
3D
  8
0
  6
CONTINUOUS
 62
     7
 10
-2.499999999999972
 20
-52.0
 30
0.0
 11
71.500000000000014
 21
-52.0
 31
0.0
  0
LINE
  5
3E
  8
0
  6
CONTINUOUS
 62
     7
 10
-10.49999999999997
 20
-60.75
 30
0.0
 11
-68.499999999999972
 21
-60.75
 31
0.0
  0
LINE
  5
3F
  8
0
  6
CONTINUOUS
 62
     7
 10
-10.49999999999997
 20
-52.75
 30
0.0
 11
-68.499999999999972
 21
-52.75
 31
0.0
  0
LINE
  5
40
  8
0
  6
CONTINUOUS
 62
     7
 10
-11.99999999999997
 20
-60.75
 30
0.0
 11
-13.99999999999997
 21
-52.75
 31
0.0
  0
LINE
  5
41
  8
0
  6
CONTINUOUS
 62
     7
 10
-12.99999999999997
 20
-60.75
 30
0.0
 11
-14.99999999999997
 21
-52.75
 31
0.0
  0
LINE
  5
42
  8
0
  6
CONTINUOUS
 62
     7
 10
-10.49999999999997
 20
-54.75
 30
0.0
 11
-10.99999999999997
 21
-52.75
 31
0.0
  0
LINE
  5
43
  8
0
  6
CONTINUOUS
 62
     7
 10
-10.49999999999997
 20
-58.75
 30
0.0
 11
-11.99999999999997
 21
-52.75
 31
0.0
  0
LINE
  5
44
  8
0
  6
CONTINUOUS
 62
     7
 10
79.500000000000014
 20
-61.5
 30
0.0
 11
79.500000000000014
 21
-52.0
 31
0.0
  0
LINE
  5
45
  8
0
  6
CONTINUOUS
 62
     7
 10
76.500000000000028
 20
-61.53125
 30
0.0
 11
76.500000000000028
 21
-52.0
 31
0.0
  0
LINE
  5
46
  8
0
  6
CONTINUOUS
 62
     7
 10
75.500000000000028
 20
-61.54166666666665
 30
0.0
 11
75.500000000000028
 21
-52.0
 31
0.0
  0
LINE
  5
47
  8
0
  6
CONTINUOUS
 62
     7
 10
72.500000000000028
 20
-61.53125
 30
0.0
 11
72.500000000000028
 21
-52.0
 31
0.0
  0
LINE
  5
48
  8
0
  6
CONTINUOUS
 62
     7
 10
71.500000000000014
 20
-61.5
 30
0.0
 11
71.500000000000014
 21
-52.0
 31
0.0
  0
LINE
  5
49
  8
0
  6
CONTINUOUS
 62
     7
 10
72.500000000000028
 20
-52.0
 30
0.0
 11
75.500000000000028
 21
-52.0
 31
0.0
  0
LINE
  5
4A
  8
0
  6
CONTINUOUS
 62
     7
 10
76.500000000000028
 20
-52.0
 30
0.0
 11
79.500000000000014
 21
-52.0
 31
0.0
  0
LINE
  5
4B
  8
0
  6
CONTINUOUS
 62
     7
 10
71.500000000000014
 20
-52.499999999999972
 30
0.0
 11
72.500000000000028
 21
-52.499999999999972
 31
0.0
  0
LINE
  5
4C
  8
0
  6
CONTINUOUS
 62
     7
 10
75.500000000000028
 20
-52.499999999999972
 30
0.0
 11
76.500000000000028
 21
-52.499999999999972
 31
0.0
  0
LINE
  5
4D
  8
0
  6
CONTINUOUS
 62
     7
 10
72.500000000000028
 20
-61.5
 30
0.0
 11
75.500000000000028
 21
-61.5
 31
0.0
  0
LINE
  5
4E
  8
0
  6
CONTINUOUS
 62
     7
 10
76.500000000000028
 20
-61.5
 30
0.0
 11
79.500000000000014
 21
-61.5
 31
0.0
  0
LINE
  5
4F
  8
0
  6
CONTINUOUS
 62
     7
 10
71.500000000000014
 20
-61.000000000000021
 30
0.0
 11
72.500000000000028
 21
-61.000000000000021
 31
0.0
  0
LINE
  5
50
  8
0
  6
CONTINUOUS
 62
     7
 10
75.500000000000028
 20
-61.000000000000021
 30
0.0
 11
76.500000000000028
 21
-61.000000000000021
 31
0.0
  0
LINE
  5
51
  8
0
  6
CONTINUOUS
 62
     7
 10
-68.499999999999972
 20
-61.5
 30
0.0
 11
-68.499999999999972
 21
-52.0
 31
0.0
  0
LINE
  5
52
  8
0
  6
CONTINUOUS
 62
     7
 10
-71.499999999999972
 20
-61.53125
 30
0.0
 11
-71.499999999999972
 21
-52.0
 31
0.0
  0
LINE
  5
53
  8
0
  6
CONTINUOUS
 62
     7
 10
-72.499999999999972
 20
-61.54166666666665
 30
0.0
 11
-72.499999999999972
 21
-52.0
 31
0.0
  0
LINE
  5
54
  8
0
  6
CONTINUOUS
 62
     7
 10
-75.499999999999972
 20
-61.53125
 30
0.0
 11
-75.499999999999972
 21
-52.0
 31
0.0
  0
LINE
  5
55
  8
0
  6
CONTINUOUS
 62
     7
 10
-76.499999999999972
 20
-61.5
 30
0.0
 11
-76.499999999999972
 21
-52.0
 31
0.0
  0
LINE
  5
56
  8
0
  6
CONTINUOUS
 62
     7
 10
-75.499999999999972
 20
-52.0
 30
0.0
 11
-72.499999999999972
 21
-52.0
 31
0.0
  0
LINE
  5
57
  8
0
  6
CONTINUOUS
 62
     7
 10
-71.499999999999972
 20
-52.0
 30
0.0
 11
-68.499999999999972
 21
-52.0
 31
0.0
  0
LINE
  5
58
  8
0
  6
CONTINUOUS
 62
     7
 10
-76.499999999999972
 20
-52.499999999999972
 30
0.0
 11
-75.499999999999972
 21
-52.499999999999972
 31
0.0
  0
LINE
  5
59
  8
0
  6
CONTINUOUS
 62
     7
 10
-72.499999999999972
 20
-52.499999999999972
 30
0.0
 11
-71.499999999999972
 21
-52.499999999999972
 31
0.0
  0
LINE
  5
5A
  8
0
  6
CONTINUOUS
 62
     7
 10
-75.499999999999972
 20
-61.5
 30
0.0
 11
-72.499999999999972
 21
-61.5
 31
0.0
  0
LINE
  5
5B
  8
0
  6
CONTINUOUS
 62
     7
 10
-71.499999999999972
 20
-61.5
 30
0.0
 11
-68.499999999999972
 21
-61.5
 31
0.0
  0
LINE
  5
5C
  8
0
  6
CONTINUOUS
 62
     7
 10
-76.499999999999972
 20
-61.000000000000021
 30
0.0
 11
-75.499999999999972
 21
-61.000000000000021
 31
0.0
  0
LINE
  5
5D
  8
0
  6
CONTINUOUS
 62
     7
 10
-72.499999999999972
 20
-61.000000000000021
 30
0.0
 11
-71.499999999999972
 21
-61.000000000000021
 31
0.0
  0
LINE
  5
5E
  8
0
  6
CONTINUOUS
 62
     7
 10
-117.5
 20
-49.949999999999989
 30
0.0
 11
-117.5
 21
-63.549999999999983
 31
0.0
  0
LINE
  5
5F
  8
0
  6
CONTINUOUS
 62
     7
 10
-76.499999999999972
 20
-61.5
 30
0.0
 11
-81.499999999999957
 21
-61.5
 31
0.0
  0
LINE
  5
60
  8
0
  6
CONTINUOUS
 62
     7
 10
-81.499999999999957
 20
-52.0
 30
0.0
 11
-76.499999999999972
 21
-52.0
 31
0.0
  0
LINE
  5
61
  8
0
  6
CONTINUOUS
 62
     7
 10
-108.0
 20
-50.388461538461527
 30
0.0
 11
-108.0
 21
-63.111538461538458
 31
0.0
  0
LINE
  5
62
  8
0
  6
CONTINUOUS
 62
     7
 10
-104.5
 20
-50.549999999999983
 30
0.0
 11
-104.5
 21
-62.949999999999989
 31
0.0
  0
ARC
  5
63
  8
0
  6
CONTINUOUS
 62
     7
 10
-79.05839447463697
 20
-283.36770833334577
 30
0.0
 40
221.88114259357889
 50
90.630502050143335
 51
96.584200289150203
  0
LINE
  5
64
  8
0
  6
CONTINUOUS
 62
     7
 10
-117.5
 20
-63.549999999999983
 30
0.0
 11
-104.5
 21
-62.949999999999989
 31
0.0
  0
LINE
  5
65
  8
0
  6
CONTINUOUS
 62
     7
 10
-104.5
 20
-50.549999999999983
 30
0.0
 11
-117.5
 21
-49.949999999999989
 31
0.0
  0
ARC
  5
66
  8
0
  6
CONTINUOUS
 62
     7
 10
-79.05839447463697
 20
169.8677083333458
 30
0.0
 40
221.88114259357889
 50
263.4157997108498
 51
269.36949794985668
  0
ENDBLK
  5
67
  8
DATA
  0
ENDSEC
  0
SECTION
  2
ENTITIES
  0
LINE
  5
68
  8
HIBINO-BASE
  6
CONTINUOUS
 62
     7
 10
-169.99999999999989
 20
537.06362999999999
 30
0.0
 11
370.0
 21
537.06362999999999
 31
0.0
  0
LINE
  5
69
  8
HIBINO-BASE
  6
CONTINUOUS
 62
     7
 10
370.0
 20
-242.93637000000001
 30
0.0
 11
-169.99999999999989
 21
-242.93637000000001
 31
0.0
  0
LINE
  5
6A
  8
HIBINO-BASE
  6
CONTINUOUS
 62
     7
 10
-169.99999999999989
 20
-242.93637000000001
 30
0.0
 11
-169.99999999999989
 21
537.06362999999999
 31
0.0
  0
TEXT
  5
6B
  8
HIBINO-BASE
 62
     7
 10
-148.44799999999989
 20
-262.1624033999999
 30
0.0
 40
10.800132539062499
  1
Hibino Corporation
 41
0.7
 11
-148.44799999999989
 21
-251.3622708609374
 31
0.0
 73
     3
  0
LINE
  5
6C
  8
HIBINO-BASE
  6
CONTINUOUS
 62
     7
 10
370.0
 20
537.06362999999999
 30
0.0
 11
370.0
 21
-242.93637000000001
 31
0.0
  0
LINE
  5
6D
  8
HIBINO-BASE
  6
CONTINUOUS
 62
     7
 10
100.0
 20
-175.4363699999999
 30
0.0
 11
370.0
 21
-175.4363699999999
 31
0.0
  0
LINE
  5
6E
  8
HIBINO-BASE
  6
CONTINUOUS
 62
     7
 10
100.0
 20
-242.93637000000001
 30
0.0
 11
100.0
 21
-175.4363699999999
 31
0.0
  0
TEXT
  5
6F
  8
HIBINO-BASE
 62
     7
 10
102.7
 20
-182.96244999999999
 30
0.0
 40
4.8865234374999993
  1
NOTE
 41
0.7
 11
102.7
 21
-178.0759265625
 31
0.0
 73
     3
  0
LINE
  5
70
  8
HIBINO-BASE
  6
CONTINUOUS
 62
     7
 10
205.0
 20
-242.93637000000001
 30
0.0
 11
205.0
 21
-175.4363699999999
 31
0.0
  0
TEXT
  5
71
  8
HIBINO-BASE
 62
     7
 10
207.69999999999999
 20
-182.96244999999999
 30
0.0
 40
4.8865234374999993
  1
TITLE
 41
0.7
 11
207.69999999999999
 21
-178.0759265625
 31
0.0
 73
     3
  0
TEXT
  5
72
  8
HIBINO-BASE
 62
     7
 10
250.2051699999999
 20
-262.1624033999999
 30
0.0
 40
10.800132539062499
  1
ヒビノ株式会社
 41
0.7
 11
250.2051699999999
 21
-251.3622708609374
 31
0.0
 73
     3
  0
LINE
  5
73
  8
HIBINO-BASE
  6
CONTINUOUS
 62
     7
 10
100.0
 20
-212.9363699999999
 30
0.0
 11
370.0
 21
-212.9363699999999
 31
0.0
  0
TEXT
  5
74
  8
HIBINO-BASE
 62
     7
 10
245.19999999999999
 20
-220.29348999999999
 30
0.0
 40
4.8865234374999993
  1
DRAWN
 41
0.7
 11
245.19999999999999
 21
-215.4069665625
 31
0.0
 73
     3
  0
TEXT
  5
75
  8
HIBINO-BASE
 62
     7
 10
170.19999999999999
 20
-220.29348999999999
 30
0.0
 40
4.8865234374999993
  1
DATE
 41
0.7
 11
170.19999999999999
 21
-215.4069665625
 31
0.0
 73
     3
  0
TEXT
  5
76
  8
HIBINO-BASE
 62
     7
 10
140.19999999999999
 20
-220.29348999999999
 30
0.0
 40
4.8865234374999993
  1
SCALE
 41
0.7
 11
140.19999999999999
 21
-215.4069665625
 31
0.0
 73
     3
  0
TEXT
  5
77
  8
HIBINO-BASE
 62
     7
 10
207.69999999999999
 20
-220.29348999999999
 30
0.0
 40
4.8865234374999993
  1
DESIGN
 41
0.7
 11
207.69999999999999
 21
-215.4069665625
 31
0.0
 73
     3
  0
TEXT
  5
78
  8
HIBINO-BASE
 62
     7
 10
320.19999999999999
 20
-220.29348999999999
 30
0.0
 40
4.8865234374999993
  1
DRAWING NO.
 41
0.7
 11
320.19999999999999
 21
-215.4069665625
 31
0.0
 73
     3
  0
TEXT
  5
79
  8
HIBINO-BASE
 62
     7
 10
282.69999999999999
 20
-220.29348999999999
 30
0.0
 40
4.8865234374999993
  1
CHECK
 41
0.7
 11
282.69999999999999
 21
-215.4069665625
 31
0.0
 73
     3
  0
LINE
  5
7A
  8
HIBINO-BASE
  6
CONTINUOUS
 62
     7
 10
143.12499999999989
 20
-239.18637000000001
 30
0.0
 11
154.375
 21
-227.93637000000001
 31
0.0
  0
TEXT
  5
7B
  8
HIBINO-BASE
 62
     7
 10
141.24999999999989
 20
-231.26320000000001
 30
0.0
 40
4.8865234374999993
  1
1
 41
0.7
 11
141.24999999999989
 21
-226.37667656249999
 31
0.0
 73
     3
  0
LINE
  5
7C
  8
HIBINO-BASE
  6
CONTINUOUS
 62
     7
 10
137.5
 20
-242.93637000000001
 30
0.0
 11
137.5
 21
-212.9363699999999
 31
0.0
  0
LINE
  5
7D
  8
HIBINO-BASE
  6
CONTINUOUS
 62
     7
 10
167.5
 20
-242.93637000000001
 30
0.0
 11
167.5
 21
-212.9363699999999
 31
0.0
  0
LINE
  5
7E
  8
HIBINO-BASE
  6
CONTINUOUS
 62
     7
 10
242.5
 20
-212.9363699999999
 30
0.0
 11
242.5
 21
-242.93637000000001
 31
0.0
  0
LINE
  5
7F
  8
HIBINO-BASE
  6
CONTINUOUS
 62
     7
 10
317.5
 20
-212.9363699999999
 30
0.0
 11
317.5
 21
-242.93637000000001
 31
0.0
  0
LINE
  5
80
  8
HIBINO-BASE
  6
CONTINUOUS
 62
     7
 10
279.99999999999989
 20
-242.93637000000001
 30
0.0
 11
279.99999999999989
 21
-212.9363699999999
 31
0.0
  0
TEXT
  5
81
  8
HIBINO-BASE
 62
     7
 10
170.06961999999999
 20
-234.34542999999999
 30
0.0
 40
4.8865234374999993
  1
'12.07.
 41
0.7
 11
170.06961999999999
 21
-229.4589065625
 31
0.0
 73
     3
  0
TEXT
  5
82
  8
HIBINO-BASE
 62
     7
 10
152.5
 20
-236.88820000000001
 30
0.0
 40
4.8865234374999993
  1
3
 41
0.7
 11
152.5
 21
-232.00167656249999
 31
0.0
 73
     3
  0
TEXT
  5
83
  8
HIBINO-BASE
 62
     7
 10
247.01743003310389
 20
-234.34542999999999
 30
0.0
 40
4.8865234374999993
  1
N.Sasaki
 41
0.7
 11
247.01743003310389
 21
-229.4589065625
 31
0.0
 73
     3
  0
TEXT
  5
84
  8
HIBINO-BASE
 62
     7
 10
111.65000000000001
 20
-237.00837000000001
 30
0.0
 40
9.7730468749999986
  1
A4
 41
0.7
 11
111.65000000000001
 21
-227.23532312500001
 31
0.0
 73
     3
  0
TEXT
  5
85
  8
HIBINO-BASE
 62
     7
 10
102.875
 20
-220.794735
 30
0.0
 40
4.8865234374999993
  1
PAPER SIZE
 41
0.7
 11
102.875
 21
-215.90821156249999
 31
0.0
 73
     3
  0
LINE
  5
86
  8
SPEC
  6
CONTINUOUS
 62
     7
 10
-147.49999999999989
 20
507.06362999999988
 30
0.0
 11
295.0
 21
507.06362999999988
 31
0.0
  0
LINE
  5
87
  8
SPEC
  6
CONTINUOUS
 62
     7
 10
-147.49999999999989
 20
495.81362999999988
 30
0.0
 11
295.0
 21
495.81362999999988
 31
0.0
  0
LINE
  5
88
  8
SPEC
  6
CONTINUOUS
 62
     7
 10
-147.49999999999989
 20
450.81362999999988
 30
0.0
 11
295.0
 21
450.81362999999988
 31
0.0
  0
LINE
  5
89
  8
SPEC
  6
CONTINUOUS
 62
     7
 10
-147.49999999999989
 20
462.06362999999988
 30
0.0
 11
295.0
 21
462.06362999999988
 31
0.0
  0
LINE
  5
8A
  8
SPEC
  6
CONTINUOUS
 62
     7
 10
-147.49999999999989
 20
473.31362999999988
 30
0.0
 11
295.0
 21
473.31362999999988
 31
0.0
  0
LINE
  5
8B
  8
SPEC
  6
CONTINUOUS
 62
     7
 10
-147.49999999999989
 20
439.56362999999988
 30
0.0
 11
295.0
 21
439.56362999999988
 31
0.0
  0
LINE
  5
8C
  8
SPEC
  6
CONTINUOUS
 62
     7
 10
-147.49999999999989
 20
394.56362999999988
 30
0.0
 11
295.0
 21
394.56362999999988
 31
0.0
  0
LINE
  5
8D
  8
SPEC
  6
CONTINUOUS
 62
     7
 10
-147.49999999999989
 20
484.56362999999988
 30
0.0
 11
295.0
 21
484.56362999999988
 31
0.0
  0
TEXT
  5
8E
  8
SPEC
 62
     7
 10
-47.29999999999999
 20
498.17739479999989
 30
0.0
 40
5.700933749999999
  1
ローカットフィルター200Hz6dB/oct）※ジャンパーで設定
 41
0.7
 11
-47.29999999999999
 21
503.87832854999999
 31
0.0
 73
     3
  0
LINE
  5
8F
  8
SPEC
  6
CONTINUOUS
 62
     7
 10
-147.49999999999989
 20
507.06362999999988
 30
0.0
 11
-147.49999999999989
 21
394.56362999999988
 31
0.0
  0
TEXT
  5
90
  8
SPEC
 62
     7
 10
-143.74999999999989
 20
511.24343999999979
 30
0.0
 40
7.3297851562499989
  1
仕様
 41
0.7
 11
-143.74999999999989
 21
518.57322515624992
 31
0.0
 73
     3
  0
LINE
  5
91
  8
SPEC
  6
CONTINUOUS
 62
     7
 10
-50.0
 20
507.06362999999988
 30
0.0
 11
-50.0
 21
394.56362999999988
 31
0.0
  0
LINE
  5
92
  8
SPEC
  6
CONTINUOUS
 62
     7
 10
295.0
 20
507.06362999999988
 30
0.0
 11
295.0
 21
394.56362999999988
 31
0.0
  0
TEXT
  5
93
  8
SPEC
 62
     7
 10
-47.29999999999999
 20
400.6773948
 30
0.0
 40
5.700933749999999
  1
丸型ベース(ST 45)
 41
0.7
 11
-47.29999999999999
 21
406.37832854999988
 31
0.0
 73
     3
  0
TEXT
  5
94
  8
SPEC
 62
     7
 10
-47.29999999999999
 20
410.67739479999989
 30
0.0
 40
5.700933749999999
  1
三脚スタンド(ST 1)
 41
0.7
 11
-47.29999999999999
 21
416.37832854999999
 31
0.0
 73
     3
  0
TEXT
  5
95
  8
SPEC
 62
     7
 10
-144.80000000000001
 20
453.1773948
 30
0.0
 40
5.700933749999999
  1
寸法・質量
 41
0.7
 11
-144.80000000000001
 21
458.87832854999988
 31
0.0
 73
     3
  0
TEXT
  5
96
  8
SPEC
 62
     7
 10
-144.80000000000001
 20
498.17739479999989
 30
0.0
 40
5.700933749999999
  1
ローカットフィルター
 41
0.7
 11
-144.80000000000001
 21
503.87832854999999
 31
0.0
 73
     3
  0
TEXT
  5
97
  8
SPEC
 62
     7
 10
-144.80000000000001
 20
430.6773948
 30
0.0
 40
5.700933749999999
  1
別売アクセサリー
 41
0.7
 11
-144.80000000000001
 21
436.37832854999999
 31
0.0
 73
     3
  0
TEXT
  5
98
  8
SPEC
 62
     7
 10
-144.80000000000001
 20
464.4273948
 30
0.0
 40
5.700933749999999
  1
コネクター
 41
0.7
 11
-144.80000000000001
 21
470.12832854999988
 31
0.0
 73
     3
  0
TEXT
  5
99
  8
SPEC
 62
     7
 10
-144.80000000000001
 20
441.92739479999989
 30
0.0
 40
5.700933749999999
  1
付属品
 41
0.7
 11
-144.80000000000001
 21
447.62832854999999
 31
0.0
 73
     3
  0
TEXT
  5
9A
  8
SPEC
 62
     7
 10
-144.80000000000001
 20
486.9273948
 30
0.0
 40
5.700933749999999
  1
インピーダンス
 41
0.7
 11
-144.80000000000001
 21
492.62832854999999
 31
0.0
 73
     3
  0
TEXT
  5
9B
  8
SPEC
 62
     7
 10
-144.80000000000001
 20
475.6773948
 30
0.0
 40
5.700933749999999
  1
電源
 41
0.7
 11
-144.80000000000001
 21
481.37832854999999
 31
0.0
 73
     3
  0
TEXT
  5
9C
  8
SPEC
 62
     7
 10
-47.29999999999999
 20
453.1773948
 30
0.0
 40
5.700933749999999
  1
\U+03C619(最大)\U+00D7383mm(全長)、174g
 41
0.7
 11
-47.29999999999999
 21
458.87832854999988
 31
0.0
 73
     3
  0
TEXT
  5
9D
  8
SPEC
 62
     7
 10
-47.29999999999999
 20
430.6773948
 30
0.0
 40
5.700933749999999
  1
埋込用ショックマウント(H 500、H 600)
 41
0.7
 11
-47.29999999999999
 21
436.37832854999999
 31
0.0
 73
     3
  0
TEXT
  5
9E
  8
SPEC
 62
     7
 10
-47.29999999999999
 20
420.6773948
 30
0.0
 40
5.700933749999999
  1
マイクホルダー(SA 60)
 41
0.7
 11
-47.29999999999999
 21
426.37832854999988
 31
0.0
 73
     3
  0
TEXT
  5
9F
  8
SPEC
 62
     7
 10
-47.29999999999999
 20
464.4273948
 30
0.0
 40
5.700933749999999
  1
XLR 3ピン
 41
0.7
 11
-47.29999999999999
 21
470.12832854999988
 31
0.0
 73
     3
  0
TEXT
  5
A0
  8
SPEC
 62
     7
 10
-47.29999999999999
 20
441.92739479999989
 30
0.0
 40
5.700933749999999
  1
XLRコネクタ ー用埋込パーツ(PS 3 F-LOCK)
 41
0.7
 11
-47.29999999999999
 21
447.62832854999999
 31
0.0
 73
     3
  0
TEXT
  5
A1
  8
SPEC
 62
     7
 10
-47.29999999999999
 20
475.6773948
 30
0.0
 40
5.700933749999999
  1
ファンタム　DC9～52V/3mA以下
 41
0.7
 11
-47.29999999999999
 21
481.37832854999999
 31
0.0
 73
     3
  0
TEXT
  5
A2
  8
SPEC
 62
     7
 10
-47.29999999999999
 20
486.9273948
 30
0.0
 40
5.700933749999999
  1
600\U+03A9以下
 41
0.7
 11
-47.29999999999999
 21
492.62832854999999
 31
0.0
 73
     3
  0
TEXT
  5
A3
  8
DIMNSIONS
 62
     7
 10
40.0
 20
-206.12790000000001
 30
0.0
 40
7.3297851562499989
  1
(単位：mm)
 41
0.7
 11
40.0
 21
-198.79811484375
 31
0.0
 73
     3
  0
LINE
  5
A4
  8
DIMNSIONS
  6
CONTINUOUS
 62
     7
 10
-72.799999999999983
 20
303.0
 30
0.0
 11
-106.0
 21
303.0
 31
0.0
  0
LINE
  5
A5
  8
DIMNSIONS
  6
CONTINUOUS
 62
     7
 10
-75.500000000000014
 20
-80.0
 30
0.0
 11
-106.0
 21
-80.0
 31
0.0
  0
LINE
  5
A6
  8
DIMNSIONS
  6
CONTINUOUS
 62
     7
 10
-100.0
 20
303.0
 30
0.0
 11
-100.0
 21
-80.0
 31
0.0
  0
LINE
  5
A7
  8
DIMNSIONS
  6
CONTINUOUS
 62
     7
 10
-100.0
 20
303.0
 30
0.0
 11
-97.989880614549264
 21
295.49813232421877
 31
0.0
  0
LINE
  5
A8
  8
DIMNSIONS
  6
CONTINUOUS
 62
     7
 10
-100.0
 20
303.0
 30
0.0
 11
-102.01011938545069
 21
295.49813232421877
 31
0.0
  0
LINE
  5
A9
  8
DIMNSIONS
  6
CONTINUOUS
 62
     7
 10
-100.0
 20
-80.0
 30
0.0
 11
-102.01011938545069
 21
-72.49813232421873
 31
0.0
  0
LINE
  5
AA
  8
DIMNSIONS
  6
CONTINUOUS
 62
     7
 10
-100.0
 20
-80.0
 30
0.0
 11
-97.989880614549264
 21
-72.49813232421873
 31
0.0
  0
TEXT
  5
AB
  8
DIMNSIONS
 62
     7
 10
-102.9816666666666
 20
103.5625
 30
0.0
 40
8.1442057291666661
  1
383
 50
90.0
 41
0.7
 11
-111.1258723958333
 21
103.5625
 31
0.0
 73
     3
  0
LINE
  5
AC
  8
DIMNSIONS
  6
CONTINUOUS
 62
     7
 10
-53.917895101200578
 20
333.04073890535523
 30
0.0
 11
-40.000000000000028
 21
339.99968645595538
 31
0.0
  0
LINE
  5
AD
  8
DIMNSIONS
  6
CONTINUOUS
 62
     7
 10
-53.917895101200578
 20
333.04073890535523
 30
0.0
 11
-48.056439438267219
 21
338.13602457744099
 31
0.0
  0
LINE
  5
AE
  8
DIMNSIONS
  6
CONTINUOUS
 62
     7
 10
-53.917895101200578
 20
333.04073890535523
 30
0.0
 11
-46.294082757901251
 21
334.52265790545363
 31
0.0
  0
LINE
  5
AF
  8
DIMNSIONS
  6
CONTINUOUS
 62
     7
 10
-40.000000000000028
 20
339.99968645595538
 30
0.0
 11
-2.2500000000000422
 21
339.99968645595538
 31
0.0
  0
TEXT
  5
B0
  8
DIMNSIONS
 62
     7
 10
-34.00000000000005
 20
342.98135312262212
 30
0.0
 40
8.1442057291666661
  1
\U+03C613.6
 41
0.7
 11
-34.00000000000005
 21
351.12555885178881
 31
0.0
 73
     3
  0
LINE
  5
B1
  8
DIMNSIONS
  6
CONTINUOUS
 62
     7
 10
-53.257653324153338
 20
-113.27778414383459
 30
0.0
 11
-40.000000000000007
 21
-100.0003135440445
 31
0.0
  0
LINE
  5
B2
  8
DIMNSIONS
  6
CONTINUOUS
 62
     7
 10
-53.257653324153338
 20
-113.27778414383459
 30
0.0
 11
-49.374400867490991
 21
-106.55179359027871
 31
0.0
  0
LINE
  5
B3
  8
DIMNSIONS
  6
CONTINUOUS
 62
     7
 10
-53.257653324153338
 20
-113.27778414383459
 30
0.0
 11
-46.531662770597521
 21
-109.3945316871722
 31
0.0
  0
LINE
  5
B4
  8
DIMNSIONS
  6
CONTINUOUS
 62
     7
 10
-40.000000000000007
 20
-100.0003135440445
 30
0.0
 11
-12.833333333333361
 21
-100.0003135440445
 31
0.0
  0
TEXT
  5
B5
  8
DIMNSIONS
 62
     7
 10
-34.000000000000007
 20
-97.018646877377904
 30
0.0
 40
8.1442057291666661
  1
\U+03C619
 41
0.7
 11
-34.000000000000007
 21
-88.874441148211233
 31
0.0
 73
     3
  0
TEXT
  5
B6
  8
DATA
 62
     7
 10
250.0
 20
-209.5437
 30
0.0
 40
7.3297851562499989
  1
GN 30 E
 41
0.7
 11
250.0
 21
-202.21391484374999
 31
0.0
 73
     3
  0
TEXT
  5
B7
  8
DATA
 62
     7
 10
250.0
 20
-187.7937
 30
0.0
 40
7.3297851562499989
  1
AKG
 41
0.7
 11
250.0
 21
-180.46391484374999
 31
0.0
 73
     3
  0
TEXT
  5
B8
  8
DATA
 62
     7
 10
-139.99999999999989
 20
-230.22237000000001
 30
0.0
 40
4.8865234374999993
  1
仕様および外観は予告なく変更されることがありますので、ご了承ください。
 41
0.7
 11
-139.99999999999989
 21
-225.3358465625
 31
0.0
 73
     3
  0
LINE
  5
B9
  8
DATA
  6
CONTINUOUS
 62
     7
 10
-69.500000000000014
 20
-80.0
 30
0.0
 11
-69.500000000000014
 21
-13.0
 31
0.0
  0
LINE
  5
BA
  8
DATA
  6
CONTINUOUS
 62
     7
 10
-50.500000000000021
 20
-80.0
 30
0.0
 11
-69.500000000000014
 21
-80.0
 31
0.0
  0
LINE
  5
BB
  8
DATA
  6
CONTINUOUS
 62
     7
 10
-50.500000000000021
 20
-13.0
 30
0.0
 11
-50.500000000000021
 21
-80.0
 31
0.0
  0
LINE
  5
BC
  8
DATA
  6
CONTINUOUS
 62
     7
 10
-55.250000000000021
 20
46.0
 30
0.0
 11
-64.750000000000014
 21
46.0
 31
0.0
  0
LINE
  5
BD
  8
DATA
  6
CONTINUOUS
 62
     7
 10
-64.750000000000014
 20
38.0
 30
0.0
 11
-65.000000000000014
 21
22.0
 31
0.0
  0
CIRCLE
  5
BE
  8
DATA
  6
CONTINUOUS
 62
     7
 10
-59.970149019743261
 20
-120.0003135440445
 30
0.0
 40
9.5
  0
LINE
  5
BF
  8
DATA
  6
CONTINUOUS
 62
     7
 10
-55.000000000000021
 20
22.0
 30
0.0
 11
-65.000000000000014
 21
22.0
 31
0.0
  0
LINE
  5
C0
  8
DATA
  6
CONTINUOUS
 62
     7
 10
-55.218750000000021
 20
43.0
 30
0.0
 11
-64.750000000000014
 21
43.0
 31
0.0
  0
LINE
  5
C1
  8
DATA
  6
CONTINUOUS
 62
     7
 10
-55.208333333333329
 20
42.0
 30
0.0
 11
-64.750000000000014
 21
42.0
 31
0.0
  0
LINE
  5
C2
  8
DATA
  6
CONTINUOUS
 62
     7
 10
-55.218750000000021
 20
39.0
 30
0.0
 11
-64.750000000000014
 21
39.0
 31
0.0
  0
LINE
  5
C3
  8
DATA
  6
CONTINUOUS
 62
     7
 10
-55.250000000000021
 20
38.0
 30
0.0
 11
-64.750000000000014
 21
38.0
 31
0.0
  0
LINE
  5
C4
  8
DATA
  6
CONTINUOUS
 62
     7
 10
-64.750000000000014
 20
39.0
 30
0.0
 11
-64.750000000000014
 21
42.000000000000007
 31
0.0
  0
LINE
  5
C5
  8
DATA
  6
CONTINUOUS
 62
     7
 10
-64.750000000000014
 20
43.000000000000021
 30
0.0
 11
-64.750000000000014
 21
46.0
 31
0.0
  0
LINE
  5
C6
  8
DATA
  6
CONTINUOUS
 62
     7
 10
-64.250000000000014
 20
38.0
 30
0.0
 11
-64.250000000000014
 21
39.0
 31
0.0
  0
LINE
  5
C7
  8
DATA
  6
CONTINUOUS
 62
     7
 10
-64.250000000000014
 20
42.0
 30
0.0
 11
-64.250000000000014
 21
43.0
 31
0.0
  0
LINE
  5
C8
  8
DATA
  6
CONTINUOUS
 62
     7
 10
-55.250000000000021
 20
38.0
 30
0.0
 11
-55.000000000000021
 21
22.0
 31
0.0
  0
LINE
  5
C9
  8
DATA
  6
CONTINUOUS
 62
     7
 10
-55.250000000000021
 20
39.0
 30
0.0
 11
-55.250000000000021
 21
42.000000000000007
 31
0.0
  0
LINE
  5
CA
  8
DATA
  6
CONTINUOUS
 62
     7
 10
-55.250000000000021
 20
43.000000000000021
 30
0.0
 11
-55.250000000000021
 21
46.0
 31
0.0
  0
LINE
  5
CB
  8
DATA
  6
CONTINUOUS
 62
     7
 10
-55.749999999999993
 20
38.0
 30
0.0
 11
-55.749999999999993
 21
39.0
 31
0.0
  0
LINE
  5
CC
  8
DATA
  6
CONTINUOUS
 62
     7
 10
-55.749999999999993
 20
42.0
 30
0.0
 11
-55.749999999999993
 21
43.0
 31
0.0
  0
LINE
  5
CD
  8
DATA
  6
CONTINUOUS
 62
     7
 10
-64.000000000000014
 20
46.0
 30
0.0
 11
-64.000000000000014
 21
106.0
 31
0.0
  0
LINE
  5
CE
  8
DATA
  6
CONTINUOUS
 62
     7
 10
-56.000000000000021
 20
46.0
 30
0.0
 11
-56.000000000000021
 21
106.0
 31
0.0
  0
LINE
  5
CF
  8
DATA
  6
CONTINUOUS
 62
     7
 10
-55.250000000000021
 20
196.0
 30
0.0
 11
-64.750000000000014
 21
196.0
 31
0.0
  0
LINE
  5
D0
  8
DATA
  6
CONTINUOUS
 62
     7
 10
-55.218750000000021
 20
193.0
 30
0.0
 11
-64.750000000000014
 21
193.0
 31
0.0
  0
LINE
  5
D1
  8
DATA
  6
CONTINUOUS
 62
     7
 10
-55.208333333333329
 20
192.0
 30
0.0
 11
-64.750000000000014
 21
192.0
 31
0.0
  0
LINE
  5
D2
  8
DATA
  6
CONTINUOUS
 62
     7
 10
-55.218750000000021
 20
189.0
 30
0.0
 11
-64.750000000000014
 21
189.0
 31
0.0
  0
LINE
  5
D3
  8
DATA
  6
CONTINUOUS
 62
     7
 10
-55.250000000000021
 20
188.0
 30
0.0
 11
-64.750000000000014
 21
188.0
 31
0.0
  0
LINE
  5
D4
  8
DATA
  6
CONTINUOUS
 62
     7
 10
-64.750000000000014
 20
189.0
 30
0.0
 11
-64.750000000000014
 21
192.0
 31
0.0
  0
LINE
  5
D5
  8
DATA
  6
CONTINUOUS
 62
     7
 10
-64.750000000000014
 20
193.0
 30
0.0
 11
-64.750000000000014
 21
196.0
 31
0.0
  0
LINE
  5
D6
  8
DATA
  6
CONTINUOUS
 62
     7
 10
-64.250000000000014
 20
188.0
 30
0.0
 11
-64.250000000000014
 21
189.0
 31
0.0
  0
LINE
  5
D7
  8
DATA
  6
CONTINUOUS
 62
     7
 10
-64.250000000000014
 20
192.0
 30
0.0
 11
-64.250000000000014
 21
193.0
 31
0.0
  0
LINE
  5
D8
  8
DATA
  6
CONTINUOUS
 62
     7
 10
-55.250000000000021
 20
189.0
 30
0.0
 11
-55.250000000000021
 21
192.0
 31
0.0
  0
LINE
  5
D9
  8
DATA
  6
CONTINUOUS
 62
     7
 10
-55.250000000000021
 20
193.0
 30
0.0
 11
-55.250000000000021
 21
196.0
 31
0.0
  0
LINE
  5
DA
  8
DATA
  6
CONTINUOUS
 62
     7
 10
-55.749999999999993
 20
188.0
 30
0.0
 11
-55.749999999999993
 21
189.0
 31
0.0
  0
LINE
  5
DB
  8
DATA
  6
CONTINUOUS
 62
     7
 10
-55.749999999999993
 20
192.0
 30
0.0
 11
-55.749999999999993
 21
193.0
 31
0.0
  0
LINE
  5
DC
  8
DATA
  6
CONTINUOUS
 62
     7
 10
-64.750000000000014
 20
114.0
 30
0.0
 11
-64.750000000000014
 21
188.0
 31
0.0
  0
LINE
  5
DD
  8
DATA
  6
CONTINUOUS
 62
     7
 10
-55.250000000000021
 20
188.0
 30
0.0
 11
-55.250000000000021
 21
114.0
 31
0.0
  0
CIRCLE
  5
DE
  8
DATA
  6
CONTINUOUS
 62
     7
 10
-60.000000000000021
 20
-52.0
 30
0.0
 40
2.0
  0
LINE
  5
DF
  8
DATA
  6
CONTINUOUS
 62
     7
 10
-58.750000000000021
 20
-52.0
 30
0.0
 11
-61.250000000000021
 21
-52.0
 31
0.0
  0
LINE
  5
E0
  8
DATA
  6
CONTINUOUS
 62
     7
 10
-60.000000000000021
 20
-50.75
 30
0.0
 11
-60.000000000000021
 21
-53.25
 31
0.0
  0
TEXT
  5
E1
  8
DATA
 62
     7
 10
-64.874307128906267
 20
-14.221630859375001
 30
0.0
 40
2.4432617187500001
  1
GN 30 E
 41
0.7
 72
     1
 11
-60.000000000000021
 21
-13.0
 31
0.0
 73
     2
  0
LINE
  5
E2
  8
DATA
  6
CONTINUOUS
 62
     7
 10
-64.000000000000014
 20
196.0
 30
0.0
 11
-64.000000000000014
 21
254.0
 31
0.0
  0
LINE
  5
E3
  8
DATA
  6
CONTINUOUS
 62
     7
 10
-56.000000000000021
 20
196.0
 30
0.0
 11
-56.000000000000021
 21
254.0
 31
0.0
  0
LINE
  5
E4
  8
DATA
  6
CONTINUOUS
 62
     7
 10
-64.750000000000014
 20
106.0
 30
0.0
 11
-55.250000000000021
 21
106.0
 31
0.0
  0
LINE
  5
E5
  8
DATA
  6
CONTINUOUS
 62
     7
 10
-64.781250000000014
 20
109.0
 30
0.0
 11
-55.250000000000021
 21
109.0
 31
0.0
  0
LINE
  5
E6
  8
DATA
  6
CONTINUOUS
 62
     7
 10
-64.791666666666671
 20
110.0
 30
0.0
 11
-55.250000000000021
 21
110.0
 31
0.0
  0
LINE
  5
E7
  8
DATA
  6
CONTINUOUS
 62
     7
 10
-64.781250000000014
 20
113.0
 30
0.0
 11
-55.250000000000021
 21
113.0
 31
0.0
  0
LINE
  5
E8
  8
DATA
  6
CONTINUOUS
 62
     7
 10
-64.750000000000014
 20
114.0
 30
0.0
 11
-55.250000000000021
 21
114.0
 31
0.0
  0
LINE
  5
E9
  8
DATA
  6
CONTINUOUS
 62
     7
 10
-55.250000000000021
 20
113.0
 30
0.0
 11
-55.250000000000021
 21
110.0
 31
0.0
  0
LINE
  5
EA
  8
DATA
  6
CONTINUOUS
 62
     7
 10
-55.250000000000021
 20
109.0
 30
0.0
 11
-55.250000000000021
 21
106.0
 31
0.0
  0
LINE
  5
EB
  8
DATA
  6
CONTINUOUS
 62
     7
 10
-55.749999999999993
 20
114.0
 30
0.0
 11
-55.749999999999993
 21
113.0
 31
0.0
  0
LINE
  5
EC
  8
DATA
  6
CONTINUOUS
 62
     7
 10
-55.749999999999993
 20
110.0
 30
0.0
 11
-55.749999999999993
 21
109.0
 31
0.0
  0
LINE
  5
ED
  8
DATA
  6
CONTINUOUS
 62
     7
 10
-64.750000000000014
 20
113.0
 30
0.0
 11
-64.750000000000014
 21
110.0
 31
0.0
  0
LINE
  5
EE
  8
DATA
  6
CONTINUOUS
 62
     7
 10
-64.750000000000014
 20
109.0
 30
0.0
 11
-64.750000000000014
 21
106.0
 31
0.0
  0
LINE
  5
EF
  8
DATA
  6
CONTINUOUS
 62
     7
 10
-64.250000000000014
 20
114.0
 30
0.0
 11
-64.250000000000014
 21
113.0
 31
0.0
  0
LINE
  5
F0
  8
DATA
  6
CONTINUOUS
 62
     7
 10
-64.250000000000014
 20
110.0
 30
0.0
 11
-64.250000000000014
 21
109.0
 31
0.0
  0
LINE
  5
F1
  8
DATA
  6
CONTINUOUS
 62
     7
 10
-64.750000000000014
 20
254.0
 30
0.0
 11
-55.250000000000021
 21
254.0
 31
0.0
  0
LINE
  5
F2
  8
DATA
  6
CONTINUOUS
 62
     7
 10
-64.781250000000014
 20
257.0
 30
0.0
 11
-55.250000000000021
 21
257.0
 31
0.0
  0
LINE
  5
F3
  8
DATA
  6
CONTINUOUS
 62
     7
 10
-64.791666666666671
 20
258.0
 30
0.0
 11
-55.250000000000021
 21
258.0
 31
0.0
  0
LINE
  5
F4
  8
DATA
  6
CONTINUOUS
 62
     7
 10
-64.781250000000014
 20
261.0
 30
0.0
 11
-55.250000000000021
 21
261.0
 31
0.0
  0
LINE
  5
F5
  8
DATA
  6
CONTINUOUS
 62
     7
 10
-64.750000000000014
 20
262.0
 30
0.0
 11
-55.250000000000021
 21
262.0
 31
0.0
  0
LINE
  5
F6
  8
DATA
  6
CONTINUOUS
 62
     7
 10
-55.250000000000021
 20
261.0
 30
0.0
 11
-55.250000000000021
 21
258.0
 31
0.0
  0
LINE
  5
F7
  8
DATA
  6
CONTINUOUS
 62
     7
 10
-55.250000000000021
 20
257.0
 30
0.0
 11
-55.250000000000021
 21
254.0
 31
0.0
  0
LINE
  5
F8
  8
DATA
  6
CONTINUOUS
 62
     7
 10
-55.749999999999993
 20
262.0
 30
0.0
 11
-55.749999999999993
 21
261.0
 31
0.0
  0
LINE
  5
F9
  8
DATA
  6
CONTINUOUS
 62
     7
 10
-55.749999999999993
 20
258.0
 30
0.0
 11
-55.749999999999993
 21
257.0
 31
0.0
  0
LINE
  5
FA
  8
DATA
  6
CONTINUOUS
 62
     7
 10
-64.750000000000014
 20
261.0
 30
0.0
 11
-64.750000000000014
 21
258.0
 31
0.0
  0
LINE
  5
FB
  8
DATA
  6
CONTINUOUS
 62
     7
 10
-64.750000000000014
 20
257.0
 30
0.0
 11
-64.750000000000014
 21
254.0
 31
0.0
  0
LINE
  5
FC
  8
DATA
  6
CONTINUOUS
 62
     7
 10
-64.250000000000014
 20
262.0
 30
0.0
 11
-64.250000000000014
 21
261.0
 31
0.0
  0
LINE
  5
FD
  8
DATA
  6
CONTINUOUS
 62
     7
 10
-64.250000000000014
 20
258.0
 30
0.0
 11
-64.250000000000014
 21
257.0
 31
0.0
  0
LINE
  5
FE
  8
DATA
  6
CONTINUOUS
 62
     7
 10
-53.200000000000003
 20
303.0
 30
0.0
 11
-66.799999999999983
 21
303.0
 31
0.0
  0
LINE
  5
FF
  8
DATA
  6
CONTINUOUS
 62
     7
 10
-64.750000000000014
 20
262.0
 30
0.0
 11
-64.750000000000014
 21
267.0
 31
0.0
  0
LINE
  5
100
  8
DATA
  6
CONTINUOUS
 62
     7
 10
-55.250000000000021
 20
267.0
 30
0.0
 11
-55.250000000000021
 21
262.0
 31
0.0
  0
LINE
  5
101
  8
DATA
  6
CONTINUOUS
 62
     7
 10
-53.638461538461542
 20
293.5
 30
0.0
 11
-66.361538461538473
 21
293.5
 31
0.0
  0
ARC
  5
102
  8
DATA
  6
CONTINUOUS
 62
     7
 10
-585.95416666667131
 20
71.190535714286341
 30
0.0
 40
523.27139475727563
 50
350.74128580432159
 51
354.60590087533927
  0
ARC
  5
103
  8
DATA
  6
CONTINUOUS
 62
     7
 10
465.95416666667131
 20
71.190535714286341
 30
0.0
 40
523.27139475727563
 50
185.39409912466061
 51
189.25871419567849
  0
LINE
  5
104
  8
DATA
  6
CONTINUOUS
 62
     7
 10
-53.79999999999999
 20
290.0
 30
0.0
 11
-66.200000000000003
 21
290.0
 31
0.0
  0
ARC
  5
105
  8
DATA
  6
CONTINUOUS
 62
     7
 10
-286.61770833334577
 20
264.558394474637
 30
0.0
 40
221.88114259357889
 50
0.630502050143312
 51
6.5842002891501874
  0
LINE
  5
106
  8
DATA
  6
CONTINUOUS
 62
     7
 10
-66.799999999999983
 20
303.0
 30
0.0
 11
-66.200000000000003
 21
290.0
 31
0.0
  0
LINE
  5
107
  8
DATA
  6
CONTINUOUS
 62
     7
 10
-53.79999999999999
 20
290.0
 30
0.0
 11
-53.200000000000003
 21
303.0
 31
0.0
  0
ARC
  5
108
  8
DATA
  6
CONTINUOUS
 62
     7
 10
166.6177083333458
 20
264.558394474637
 30
0.0
 40
221.88114259357889
 50
173.4157997108498
 51
179.36949794985671
  0
ARC
  5
109
  8
DATA
  6
CONTINUOUS
 62
     7
 10
-60.000000000000021
 20
-120.0003135440445
 30
0.0
 40
7.9999999999991873
 50
62.44366095642404
 51
48.927249057893292
  0
CIRCLE
  5
10A
  8
DATA
  6
CONTINUOUS
 62
     7
 10
-60.000000000000867
 20
-124.5187899431906
 30
0.0
 40
1.199999999999988
  0
CIRCLE
  5
10B
  8
DATA
  6
CONTINUOUS
 62
     7
 10
-64.394784291593922
 20
-121.050313544045
 30
0.0
 40
1.199999999999988
  0
CIRCLE
  5
10C
  8
DATA
  6
CONTINUOUS
 62
     7
 10
-55.605215708407762
 20
-121.050313544045
 30
0.0
 40
1.199999999999988
  0
ARC
  5
10D
  8
DATA
  6
CONTINUOUS
 62
     7
 10
-55.711535953883143
 20
-113.7170872647485
 30
0.0
 40
1.0000000000000091
 50
345.39115668930378
 51
125.9797533250055
  0
CIRCLE
  5
10E
  8
DATA
  6
CONTINUOUS
 62
     7
 10
-60.000000000000021
 20
329.99968645595538
 30
0.0
 40
6.8000000000000114
  0
CIRCLE
  5
10F
  8
DATA
  6
CONTINUOUS
 62
     7
 10
-60.000000000000021
 20
329.99968645595538
 30
0.0
 40
5.7000000000000171
  0
CIRCLE
  5
110
  8
DATA
  6
CONTINUOUS
 62
     7
 10
-60.000000000000021
 20
329.99968645595538
 30
0.0
 40
4.0
  0
CIRCLE
  5
111
  8
DATA
  6
CONTINUOUS
 62
     7
 10
-60.000000000000021
 20
329.99968645595538
 30
0.0
 40
1.5
  0
CIRCLE
  5
112
  8
DATA
  6
CONTINUOUS
 62
     7
 10
-60.000000000000021
 20
329.99968645595538
 30
0.0
 40
0.5
  0
LINE
  5
113
  8
DATA
  6
CONTINUOUS
 62
     7
 10
-55.631474629429782
 20
333.66110504533918
 30
0.0
 11
-56.84020356932627
 21
332.45237610544262
 31
0.0
  0
LINE
  5
114
  8
DATA
  6
CONTINUOUS
 62
     7
 10
-62.452689649487169
 20
326.8398900252817
 30
0.0
 11
-63.661418589383651
 21
325.6311610853852
 31
0.0
  0
LINE
  5
115
  8
DATA
  6
CONTINUOUS
 62
     7
 10
-56.338581410616328
 20
334.36821182652568
 30
0.0
 11
-57.547310350512831
 21
333.15948288662912
 31
0.0
  0
LINE
  5
116
  8
DATA
  6
CONTINUOUS
 62
     7
 10
-63.159796430673723
 20
327.5469968064682
 30
0.0
 11
-64.368525370570197
 21
326.3382678665717
 31
0.0
  0
LINE
  5
117
  8
DATA
  6
CONTINUOUS
 62
     7
 10
210.5
 20
-80.0
 30
0.0
 11
210.5
 21
-13.0
 31
0.0
  0
LINE
  5
118
  8
DATA
  6
CONTINUOUS
 62
     7
 10
229.5
 20
-80.0
 30
0.0
 11
210.5
 21
-80.0
 31
0.0
  0
LINE
  5
119
  8
DATA
  6
CONTINUOUS
 62
     7
 10
229.5
 20
-13.0
 30
0.0
 11
229.5
 21
-80.0
 31
0.0
  0
LINE
  5
11A
  8
DATA
  6
CONTINUOUS
 62
     7
 10
224.75
 20
46.0
 30
0.0
 11
215.25
 21
46.0
 31
0.0
  0
LINE
  5
11B
  8
DATA
  6
CONTINUOUS
 62
     7
 10
215.25
 20
38.0
 30
0.0
 11
215.0
 21
22.0
 31
0.0
  0
LINE
  5
11C
  8
DATA
  6
CONTINUOUS
 62
     7
 10
225.0
 20
22.0
 30
0.0
 11
215.0
 21
22.0
 31
0.0
  0
LINE
  5
11D
  8
DATA
  6
CONTINUOUS
 62
     7
 10
224.78125
 20
43.0
 30
0.0
 11
215.25
 21
43.0
 31
0.0
  0
LINE
  5
11E
  8
DATA
  6
CONTINUOUS
 62
     7
 10
224.79166666666671
 20
42.0
 30
0.0
 11
215.25
 21
42.0
 31
0.0
  0
LINE
  5
11F
  8
DATA
  6
CONTINUOUS
 62
     7
 10
224.78125
 20
39.0
 30
0.0
 11
215.25
 21
39.0
 31
0.0
  0
LINE
  5
120
  8
DATA
  6
CONTINUOUS
 62
     7
 10
224.75
 20
38.0
 30
0.0
 11
215.25
 21
38.0
 31
0.0
  0
LINE
  5
121
  8
DATA
  6
CONTINUOUS
 62
     7
 10
215.25
 20
39.0
 30
0.0
 11
215.25
 21
42.000000000000007
 31
0.0
  0
LINE
  5
122
  8
DATA
  6
CONTINUOUS
 62
     7
 10
215.25
 20
43.000000000000021
 30
0.0
 11
215.25
 21
46.0
 31
0.0
  0
LINE
  5
123
  8
DATA
  6
CONTINUOUS
 62
     7
 10
215.75
 20
38.0
 30
0.0
 11
215.75
 21
39.0
 31
0.0
  0
LINE
  5
124
  8
DATA
  6
CONTINUOUS
 62
     7
 10
215.75
 20
42.0
 30
0.0
 11
215.75
 21
43.0
 31
0.0
  0
LINE
  5
125
  8
DATA
  6
CONTINUOUS
 62
     7
 10
224.75
 20
38.0
 30
0.0
 11
225.0
 21
22.0
 31
0.0
  0
LINE
  5
126
  8
DATA
  6
CONTINUOUS
 62
     7
 10
224.75
 20
39.0
 30
0.0
 11
224.75
 21
42.000000000000007
 31
0.0
  0
LINE
  5
127
  8
DATA
  6
CONTINUOUS
 62
     7
 10
224.75
 20
43.000000000000021
 30
0.0
 11
224.75
 21
46.0
 31
0.0
  0
LINE
  5
128
  8
DATA
  6
CONTINUOUS
 62
     7
 10
224.25
 20
38.0
 30
0.0
 11
224.25
 21
39.0
 31
0.0
  0
LINE
  5
129
  8
DATA
  6
CONTINUOUS
 62
     7
 10
224.25
 20
42.0
 30
0.0
 11
224.25
 21
43.0
 31
0.0
  0
CIRCLE
  5
12A
  8
DATA
  6
CONTINUOUS
 62
     7
 10
220.0
 20
-52.0
 30
0.0
 40
2.0
  0
LINE
  5
12B
  8
DATA
  6
CONTINUOUS
 62
     7
 10
221.25
 20
-52.0
 30
0.0
 11
218.75
 21
-52.0
 31
0.0
  0
LINE
  5
12C
  8
DATA
  6
CONTINUOUS
 62
     7
 10
220.0
 20
-50.75
 30
0.0
 11
220.0
 21
-53.25
 31
0.0
  0
TEXT
  5
12D
  8
DATA
 62
     7
 10
215.12569287109369
 20
-14.221630859375001
 30
0.0
 40
2.4432617187500001
  1
GN 30 E
 41
0.7
 72
     1
 11
220.0
 21
-13.0
 31
0.0
 73
     2
  0
ARC
  5
12E
  8
DATA
  6
CONTINUOUS
 62
     7
 10
-305.95416666667143
 20
71.190535714286341
 30
0.0
 40
523.27139475727563
 50
350.74128580432159
 51
354.60590087533927
  0
ARC
  5
12F
  8
DATA
  6
CONTINUOUS
 62
     7
 10
745.95416666667143
 20
71.190535714286341
 30
0.0
 40
523.27139475727563
 50
185.39409912466061
 51
189.25871419567849
  0
INSERT
  5
130
  8
DATA
 62
     7
  2
____
 10
100.0
 20
140.0
 30
0.0
  0
ARC
  5
131
  8
DATA
  6
CONTINUOUS
 62
     7
 10
179.5890227291039
 20
42.717911509574172
 30
0.0
 40
44.532089632253268
 50
4.2266258604656191
 51
89.987025180279346
  0
ARC
  5
132
  8
DATA
  6
CONTINUOUS
 62
     7
 10
179.5890227291039
 20
42.717911509575032
 30
0.0
 40
36.532088490424982
 50
5.1544743813220908
 51
90.139620588836678
  0
LINE
  5
133
  8
DATA
  6
CONTINUOUS
 62
     7
 10
290.5
 20
-80.0
 30
0.0
 11
290.5
 21
-13.0
 31
0.0
  0
LINE
  5
134
  8
DATA
  6
CONTINUOUS
 62
     7
 10
309.5
 20
-80.0
 30
0.0
 11
290.5
 21
-80.0
 31
0.0
  0
LINE
  5
135
  8
DATA
  6
CONTINUOUS
 62
     7
 10
309.5
 20
-13.0
 30
0.0
 11
309.5
 21
-80.0
 31
0.0
  0
LINE
  5
136
  8
DATA
  6
CONTINUOUS
 62
     7
 10
304.75
 20
46.0
 30
0.0
 11
295.25
 21
46.0
 31
0.0
  0
LINE
  5
137
  8
DATA
  6
CONTINUOUS
 62
     7
 10
295.25
 20
38.0
 30
0.0
 11
295.0
 21
22.0
 31
0.0
  0
LINE
  5
138
  8
DATA
  6
CONTINUOUS
 62
     7
 10
305.0
 20
22.0
 30
0.0
 11
295.0
 21
22.0
 31
0.0
  0
LINE
  5
139
  8
DATA
  6
CONTINUOUS
 62
     7
 10
304.78125
 20
43.0
 30
0.0
 11
295.25
 21
43.0
 31
0.0
  0
LINE
  5
13A
  8
DATA
  6
CONTINUOUS
 62
     7
 10
304.79166666666669
 20
42.0
 30
0.0
 11
295.25
 21
42.0
 31
0.0
  0
LINE
  5
13B
  8
DATA
  6
CONTINUOUS
 62
     7
 10
304.78125
 20
39.0
 30
0.0
 11
295.25
 21
39.0
 31
0.0
  0
LINE
  5
13C
  8
DATA
  6
CONTINUOUS
 62
     7
 10
304.75
 20
38.0
 30
0.0
 11
295.25
 21
38.0
 31
0.0
  0
LINE
  5
13D
  8
DATA
  6
CONTINUOUS
 62
     7
 10
295.25
 20
39.0
 30
0.0
 11
295.25
 21
42.000000000000007
 31
0.0
  0
LINE
  5
13E
  8
DATA
  6
CONTINUOUS
 62
     7
 10
295.25
 20
43.000000000000021
 30
0.0
 11
295.25
 21
46.0
 31
0.0
  0
LINE
  5
13F
  8
DATA
  6
CONTINUOUS
 62
     7
 10
295.75
 20
38.0
 30
0.0
 11
295.75
 21
39.0
 31
0.0
  0
LINE
  5
140
  8
DATA
  6
CONTINUOUS
 62
     7
 10
295.75
 20
42.0
 30
0.0
 11
295.75
 21
43.0
 31
0.0
  0
LINE
  5
141
  8
DATA
  6
CONTINUOUS
 62
     7
 10
304.75
 20
38.0
 30
0.0
 11
305.0
 21
22.0
 31
0.0
  0
LINE
  5
142
  8
DATA
  6
CONTINUOUS
 62
     7
 10
304.75
 20
39.0
 30
0.0
 11
304.75
 21
42.000000000000007
 31
0.0
  0
LINE
  5
143
  8
DATA
  6
CONTINUOUS
 62
     7
 10
304.75
 20
43.000000000000021
 30
0.0
 11
304.75
 21
46.0
 31
0.0
  0
LINE
  5
144
  8
DATA
  6
CONTINUOUS
 62
     7
 10
304.25
 20
38.0
 30
0.0
 11
304.25
 21
39.0
 31
0.0
  0
LINE
  5
145
  8
DATA
  6
CONTINUOUS
 62
     7
 10
304.25
 20
42.0
 30
0.0
 11
304.25
 21
43.0
 31
0.0
  0
LINE
  5
146
  8
DATA
  6
CONTINUOUS
 62
     7
 10
296.0
 20
46.0
 30
0.0
 11
296.0
 21
106.0
 31
0.0
  0
LINE
  5
147
  8
DATA
  6
CONTINUOUS
 62
     7
 10
304.0
 20
46.0
 30
0.0
 11
304.0
 21
106.0
 31
0.0
  0
LINE
  5
148
  8
DATA
  6
CONTINUOUS
 62
     7
 10
304.75
 20
196.0
 30
0.0
 11
295.25
 21
196.0
 31
0.0
  0
LINE
  5
149
  8
DATA
  6
CONTINUOUS
 62
     7
 10
304.78125
 20
193.0
 30
0.0
 11
295.25
 21
193.0
 31
0.0
  0
LINE
  5
14A
  8
DATA
  6
CONTINUOUS
 62
     7
 10
304.79166666666669
 20
192.0
 30
0.0
 11
295.25
 21
192.0
 31
0.0
  0
LINE
  5
14B
  8
DATA
  6
CONTINUOUS
 62
     7
 10
304.78125
 20
189.0
 30
0.0
 11
295.25
 21
189.0
 31
0.0
  0
LINE
  5
14C
  8
DATA
  6
CONTINUOUS
 62
     7
 10
304.75
 20
188.0
 30
0.0
 11
295.25
 21
188.0
 31
0.0
  0
LINE
  5
14D
  8
DATA
  6
CONTINUOUS
 62
     7
 10
295.25
 20
189.0
 30
0.0
 11
295.25
 21
192.0
 31
0.0
  0
LINE
  5
14E
  8
DATA
  6
CONTINUOUS
 62
     7
 10
295.25
 20
193.0
 30
0.0
 11
295.25
 21
196.0
 31
0.0
  0
LINE
  5
14F
  8
DATA
  6
CONTINUOUS
 62
     7
 10
295.75
 20
188.0
 30
0.0
 11
295.75
 21
189.0
 31
0.0
  0
LINE
  5
150
  8
DATA
  6
CONTINUOUS
 62
     7
 10
295.75
 20
192.0
 30
0.0
 11
295.75
 21
193.0
 31
0.0
  0
LINE
  5
151
  8
DATA
  6
CONTINUOUS
 62
     7
 10
304.75
 20
189.0
 30
0.0
 11
304.75
 21
192.0
 31
0.0
  0
LINE
  5
152
  8
DATA
  6
CONTINUOUS
 62
     7
 10
304.75
 20
193.0
 30
0.0
 11
304.75
 21
196.0
 31
0.0
  0
LINE
  5
153
  8
DATA
  6
CONTINUOUS
 62
     7
 10
304.25
 20
188.0
 30
0.0
 11
304.25
 21
189.0
 31
0.0
  0
LINE
  5
154
  8
DATA
  6
CONTINUOUS
 62
     7
 10
304.25
 20
192.0
 30
0.0
 11
304.25
 21
193.0
 31
0.0
  0
LINE
  5
155
  8
DATA
  6
CONTINUOUS
 62
     7
 10
295.25
 20
114.0
 30
0.0
 11
295.25
 21
188.0
 31
0.0
  0
LINE
  5
156
  8
DATA
  6
CONTINUOUS
 62
     7
 10
304.75
 20
188.0
 30
0.0
 11
304.75
 21
114.0
 31
0.0
  0
CIRCLE
  5
157
  8
DATA
  6
CONTINUOUS
 62
     7
 10
300.0
 20
-52.0
 30
0.0
 40
2.0
  0
LINE
  5
158
  8
DATA
  6
CONTINUOUS
 62
     7
 10
301.25
 20
-52.0
 30
0.0
 11
298.75
 21
-52.0
 31
0.0
  0
LINE
  5
159
  8
DATA
  6
CONTINUOUS
 62
     7
 10
300.0
 20
-50.75
 30
0.0
 11
300.0
 21
-53.25
 31
0.0
  0
TEXT
  5
15A
  8
DATA
 62
     7
 10
295.12569287109369
 20
-14.221630859375001
 30
0.0
 40
2.4432617187500001
  1
GN 30 E
 41
0.7
 72
     1
 11
300.0
 21
-13.0
 31
0.0
 73
     2
  0
LINE
  5
15B
  8
DATA
  6
CONTINUOUS
 62
     7
 10
295.25
 20
106.0
 30
0.0
 11
304.75
 21
106.0
 31
0.0
  0
LINE
  5
15C
  8
DATA
  6
CONTINUOUS
 62
     7
 10
295.21875
 20
109.0
 30
0.0
 11
304.75
 21
109.0
 31
0.0
  0
LINE
  5
15D
  8
DATA
  6
CONTINUOUS
 62
     7
 10
295.2083333333332
 20
110.0
 30
0.0
 11
304.75
 21
110.0
 31
0.0
  0
LINE
  5
15E
  8
DATA
  6
CONTINUOUS
 62
     7
 10
295.21875
 20
113.0
 30
0.0
 11
304.75
 21
113.0
 31
0.0
  0
LINE
  5
15F
  8
DATA
  6
CONTINUOUS
 62
     7
 10
295.25
 20
114.0
 30
0.0
 11
304.75
 21
114.0
 31
0.0
  0
LINE
  5
160
  8
DATA
  6
CONTINUOUS
 62
     7
 10
304.75
 20
113.0
 30
0.0
 11
304.75
 21
110.0
 31
0.0
  0
LINE
  5
161
  8
DATA
  6
CONTINUOUS
 62
     7
 10
304.75
 20
109.0
 30
0.0
 11
304.75
 21
106.0
 31
0.0
  0
LINE
  5
162
  8
DATA
  6
CONTINUOUS
 62
     7
 10
304.25
 20
114.0
 30
0.0
 11
304.25
 21
113.0
 31
0.0
  0
LINE
  5
163
  8
DATA
  6
CONTINUOUS
 62
     7
 10
304.25
 20
110.0
 30
0.0
 11
304.25
 21
109.0
 31
0.0
  0
LINE
  5
164
  8
DATA
  6
CONTINUOUS
 62
     7
 10
295.25
 20
113.0
 30
0.0
 11
295.25
 21
110.0
 31
0.0
  0
LINE
  5
165
  8
DATA
  6
CONTINUOUS
 62
     7
 10
295.25
 20
109.0
 30
0.0
 11
295.25
 21
106.0
 31
0.0
  0
LINE
  5
166
  8
DATA
  6
CONTINUOUS
 62
     7
 10
295.75
 20
114.0
 30
0.0
 11
295.75
 21
113.0
 31
0.0
  0
LINE
  5
167
  8
DATA
  6
CONTINUOUS
 62
     7
 10
295.75
 20
110.0
 30
0.0
 11
295.75
 21
109.0
 31
0.0
  0
ARC
  5
168
  8
DATA
  6
CONTINUOUS
 62
     7
 10
-225.95416666667151
 20
71.190535714286341
 30
0.0
 40
523.27139475727563
 50
350.74128580432159
 51
354.60590087533927
  0
ARC
  5
169
  8
DATA
  6
CONTINUOUS
 62
     7
 10
825.95416666667154
 20
71.190535714286341
 30
0.0
 40
523.27139475727563
 50
185.39409912466061
 51
189.25871419567849
  0
LINE
  5
16A
  8
DATA
  6
CONTINUOUS
 62
     7
 10
265.5
 20
225.75
 30
0.0
 11
265.5
 21
235.25
 31
0.0
  0
LINE
  5
16B
  8
DATA
  6
CONTINUOUS
 62
     7
 10
262.5
 20
225.71875
 30
0.0
 11
262.5
 21
235.25
 31
0.0
  0
LINE
  5
16C
  8
DATA
  6
CONTINUOUS
 62
     7
 10
261.5
 20
225.70833333333329
 30
0.0
 11
261.5
 21
235.25
 31
0.0
  0
LINE
  5
16D
  8
DATA
  6
CONTINUOUS
 62
     7
 10
258.5
 20
225.71875
 30
0.0
 11
258.5
 21
235.25
 31
0.0
  0
LINE
  5
16E
  8
DATA
  6
CONTINUOUS
 62
     7
 10
257.5
 20
225.75
 30
0.0
 11
257.5
 21
235.25
 31
0.0
  0
LINE
  5
16F
  8
DATA
  6
CONTINUOUS
 62
     7
 10
258.5
 20
235.25
 30
0.0
 11
261.5
 21
235.25
 31
0.0
  0
LINE
  5
170
  8
DATA
  6
CONTINUOUS
 62
     7
 10
262.5
 20
235.25
 30
0.0
 11
265.5
 21
235.25
 31
0.0
  0
LINE
  5
171
  8
DATA
  6
CONTINUOUS
 62
     7
 10
257.5
 20
234.75
 30
0.0
 11
258.5
 21
234.75
 31
0.0
  0
LINE
  5
172
  8
DATA
  6
CONTINUOUS
 62
     7
 10
261.5
 20
234.75
 30
0.0
 11
262.5
 21
234.75
 31
0.0
  0
LINE
  5
173
  8
DATA
  6
CONTINUOUS
 62
     7
 10
258.5
 20
225.75
 30
0.0
 11
261.5
 21
225.75
 31
0.0
  0
LINE
  5
174
  8
DATA
  6
CONTINUOUS
 62
     7
 10
262.5
 20
225.75
 30
0.0
 11
265.5
 21
225.75
 31
0.0
  0
LINE
  5
175
  8
DATA
  6
CONTINUOUS
 62
     7
 10
257.5
 20
226.25
 30
0.0
 11
258.5
 21
226.25
 31
0.0
  0
LINE
  5
176
  8
DATA
  6
CONTINUOUS
 62
     7
 10
261.5
 20
226.25
 30
0.0
 11
262.5
 21
226.25
 31
0.0
  0
LINE
  5
177
  8
DATA
  6
CONTINUOUS
 62
     7
 10
216.5
 20
237.30000000000001
 30
0.0
 11
216.5
 21
223.69999999999999
 31
0.0
  0
LINE
  5
178
  8
DATA
  6
CONTINUOUS
 62
     7
 10
257.5
 20
225.75
 30
0.0
 11
252.5
 21
225.75
 31
0.0
  0
LINE
  5
179
  8
DATA
  6
CONTINUOUS
 62
     7
 10
252.5
 20
235.25
 30
0.0
 11
257.5
 21
235.25
 31
0.0
  0
LINE
  5
17A
  8
DATA
  6
CONTINUOUS
 62
     7
 10
226.0
 20
236.86153846153849
 30
0.0
 11
226.0
 21
224.13846153846151
 31
0.0
  0
LINE
  5
17B
  8
DATA
  6
CONTINUOUS
 62
     7
 10
229.5
 20
236.69999999999999
 30
0.0
 11
229.5
 21
224.30000000000001
 31
0.0
  0
ARC
  5
17C
  8
DATA
  6
CONTINUOUS
 62
     7
 10
254.941605525363
 20
3.8822916666541389
 30
0.0
 40
221.88114259357889
 50
90.630502050143335
 51
96.584200289150203
  0
LINE
  5
17D
  8
DATA
  6
CONTINUOUS
 62
     7
 10
216.5
 20
223.69999999999999
 30
0.0
 11
229.5
 21
224.30000000000001
 31
0.0
  0
LINE
  5
17E
  8
DATA
  6
CONTINUOUS
 62
     7
 10
229.5
 20
236.69999999999999
 30
0.0
 11
216.5
 21
237.30000000000001
 31
0.0
  0
ARC
  5
17F
  8
DATA
  6
CONTINUOUS
 62
     7
 10
254.941605525363
 20
457.11770833334572
 30
0.0
 40
221.88114259357889
 50
263.4157997108498
 51
269.36949794985668
  0
ARC
  5
180
  8
DATA
  6
CONTINUOUS
 62
     7
 10
265.49999999999932
 20
196.0000000000241
 30
0.0
 40
38.49999999997587
 50
359.99999999996407
 51
89.999999999998906
  0
ARC
  5
181
  8
DATA
  6
CONTINUOUS
 62
     7
 10
265.49999999999949
 20
196.00000000002601
 30
0.0
 40
30.499999999998892
 50
359.99999999995123
 51
90.000000000000384
  0
TEXT
  5
182
  8
DATA
 62
     7
 10
242.5
 20
-198.98656980000001
 30
0.0
 40
6.5153748437499992
  1
グースネック
 41
0.7
 11
242.5
 21
-192.47119495625
 31
0.0
 73
     3
  0
ENDSEC
  0
EOF
